Whotabs – The Definitive Online Tablature and Gear Resource for The Who since 1997

Return to Whotabs

Mike Post Theme – bass tab

Mike Post Theme | bass tab
By The Who, 2006
>From Wire & Glass (EP), July 2006
Written By Pete Townshend, (c)2006 Eel Pie Publishing

#----------------------------------PLEASE NOTE---------------------------------#
#This file is the author's own work and represents their interpretation of the #
#song. You may only use this file for private study, scholarship, or research. #
#------------------------------------------------------------------------------#


Intro (We're not...)       Verse (Late at night...)
|------------------------| |-------------------|
|-0-0-0-0-0-0-0-12-------| |----------5--------|
|-------------------/10--| |-5-----------------|
|------------------------| |-------------------|

Chorus (Every thing is...)
|-----7----7-|----------|
|------------|-5-5-3--2-|
|-5-5---5-5--|----------|
|------------|----------|

Bridge (We watched...)
|--------------------------------------------------------|------|
|-7~~~~/9~~~~/11~~~~/12~~~~\7~~~~/9~~~~/11~~~~/14~~~~~~~~|--12--|
|--------------------------------------------------------|------|
|--------------------------------------------------------|------|

Break
|---------------------|
|-5-5-4--0------------|
|-----------3-3-2-----|
|------------------3--|

~ - Hold
/ - Slide Up
\ - Slide Down

#----------------------------------PLEASE NOTE---------------------------------#
#This file is the author's own work and represents their interpretation of the #
#song. You may only use this file for private study, scholarship, or research. #
#------------------------------------------------------------------------------#

Disclaimer

A note on the content here:

The files archived on this site are the respective transcriber’s own work and represent their interpretations of the songs. You may only use these files for private study, scholarship or research. more on use of files >>

Section navigation

Tablature Section

Site info Navigation

Whotabs is not affiliated with The Who, its record company or management.