Whotabs – The Definitive Online Tablature and Gear Resource for The Who since 1997

Return to Whotabs

Won’t Get Fooled Again – guitar tab

Won't Get Fooled Again | guitar tab
By The Who
>From Who's Next, 1971
Written by Pete Townshend (c)1971 Towser Tunes Inc./Fabulous Music Ltd.

#----------------------------------PLEASE NOTE---------------------------------#
#This file is the author's own work and represents their interpretation of the #
#song. You may only use this file for private study, scholarship, or research. #
#------------------------------------------------------------------------------#


NOTE: Scroll to bottom for old CRD-only basic arrangement transcription
==============                                                        
transcribed by      v1 2000-03-26          Whotabs                    
litgo@aol.com       v2 2008-05-19          www.thewho.net/whotabs     
==============      v3 2009-05-19                                     

Arranged for four guitars: three electric, one acoustic
A      x022xx and x0222x
A5     x02255
(G)    3xxxxx                                               
(C)    x3xxxx                                      w   w    
D      xx0232                                      h   w   
C      x32010                                      o   w   
G      3x0033 and 3x0003  (note fingering: txoorp) t   .   
G/D    xx0433                                      a   t   
D/A    x0243x                                      b   h   
D7     xx0535                                      s   e   
B      x2444x                                          w   
E      022400 and 022100                               h   
E7     020100                                          o   
E6     042200                                          .   
E7ii   050400                                          n   
A6     x042xx                                          e   
A7     x05050                                          t   
A/B    x222xx                                          /   
B/A    x044xx                                          w   
                                                       h   
||A   |  |  |  |  |  |  |  |  |  |  |  |  |  |  |  |   o   
||[electric 1]                                     |   t   
||----|--|--|--|--|--|--|--|--|--|--|--|--|--|--|--|   a   
||----|--|--|--|--|--|--|--|--|--|--|--|--|--|--|--|   b   
||2---|--|--|--|--|--|--|--|--|--|--|--|--|--|--|--|   s   
||2---|--|--|--|--|--|--|--|--|--|--|--|--|--|--|--|       
||0---|--|--|--|--|--|--|--|--|--|--|--|--|--|--|--|       
||----|--|--|--|--|--|--|--|--|--|--|--|--|--|--|--|       


(G)|A   |    (G)|A    |     (G)|A   A   A |     |     |     D    |
                                                             (We'll be)
[electric 1]                                                     |
---|----|-------|-----|--------|----------|-----|-----|----------|
---|----|-------|-----|--------|----------|-----|-----|--x-------|
---|2---|-------|2----|--------|2---2-----|-----|-----|--4^\-2-2-|
---|2---|-------|2----|------2-|2---2---2-|-----|-----|----------|
---|0---|-------|0--~-|--------|0---0---0-|-----|-----|----------|
-3^|----|------3|-----|------3^|----------|-----|-----|----------|


[verse]
        |A                |     G  D     | A              |  G   D       |
We'll be fighting in the streets   With our children at our feet   (and the)
[electric 1]                             |                               |
        |-----------------|5-------------|----------------|--------------|
        |----------------5|5-------------|---x------------|--------------|
        |~~~-------------2|2---x-----x---|---x-----2~-----|--------------|
        |-----------------|----x-----x--2|2------x-2------|----------x-0-|
        |-----------------|0-------0----0|0------x--------|-------0------|
        |-----------------|--------------|----------------|--------------|
        [acoustic in; verse pattern]                                     |
      ||:A     / /       /|/    G  D   /:||:     %        |       %     :||
      ||-------5-5-------5|5----3--2-----||
      ||-------5-5-------5|5----3--3-----||
      ||.2-----2-2-------2|2-0--0--2---2.||
      ||.2-----2-2-------2|2-0--0--0---2.||
      ||-0-----0-0-------0|0-----------0-||
      ||------------------|-(3)-3--------||


       |A                     | G  D      |E        |  C    G G      |
And the morals that they worship will be gone                (And the)
[electric 1]                                                         |
       |---5------------------|-----------|---0-----|----------------|
       |---5------------------|-----------|---0-----|----------------|
       |---2------------------|-----------|---4-----|--0-0----0------|
       |----------------------|--x--------|------(2)|--2-2----0------|
       |0---------------------|----0------|2--------|----------------|
       |----------------------|------3^---|0-----(0)|--3-3--3--------|
                                          |[acoustic]                |
                                          |E  E E   |    C  G G     A|


       |A                 |   G   D      |A                | G    D         |
And the men who spurred us on      sit in judgment of all wrong    (They de-)
[electric 1]                                                                |
       |----5-------------|--------------|-----5~----------|--x-------------|
       |----5-------------|--------------|-----5~-----x----|--5-------------|
       |----x-------------|--------------|-----x------x----|--2-x-----------|
       |2---x-------------|---x-----x--0-|-----x-----------|--x-x---------x-|
       |0-----------------|-------0------|0----------------|----x--0---0--0-|
       |------------------|--------------|-----------------|-------x--------|


      |A              |  G  D        |E           |  C C G G       |
They decide and the shotgun sings the song                      (I'll)
      |[electric 1]                                                |
      |---5-----~-----|--------------|-----0------|----------------|
      |---5-----~-----|-----5--------|-----0------|--3-3---3------/|
      |---2-----------|-----2--------|-----4------|--0-0---0-------|
      |2--------------|-----2--------|-----2------|--2-2---0-------|
      |0--------------|-----0-0------|------------|--3-3-----------|
      |---------------|-------0-x-3^-|0-----------|------3-3-------|
      |[acoustic]                                                  |
      |A   A A       A|D    D D     E|E    E E    |    C G G       |

[chorus]
    |D      A         |D         A      |D      A          |D        A      |
I'll tip my hat to the new constitution  Take a bow for the new revolution   
    |[electric 1]                                                           |
    |---2---5---------|--2--------------|-----2------------|--2-------------|
    |3--3---5---------|--3--------------|-----3------------|x-3-------------|
    |-------2---------|2---------2------|---x-----2--------|---------2------|
    |-----------------|0---------2------|---------2--------|---------2------|
    |-----0-----------|------0----------|-------0----------|-------0--------|
    |-----------------|-----------------|------------------|----------------|
    |[acoustic]                                                             |
    |D   A A          |D       A A    D |D    A A         D|D      A A      |


|D         A          |D        A       |
 Smile and grin at the change all around 
[electric 1]                            |
|---2-----------------|---2-------------|
|---3-----------------|---3-------------|
|----------2----------|---------2-------|
|0---------2----------|0--------2-------|
|-------0-------------|-------0---------|
|---------------------|----------------/|
[acoustic]                              |
|D     A   A       D  |D     A  A       |


|G                    |E7   E6  E7   |G              |E7   E6  E7        |
 Pick up my guitar and play           Just like yesterday,     (then I'll)
|[electric 1]                                                            |
|--------3------------|--------------|---------------|-------------------|
|--------3------------|9----7---5~~--|----12~--------|9----7------9------|
|---------------------|--------------|---------------|-------------------|
|--------------0---7/9|---0---0----0-|10/12----0--7/9|--0----0-7/9--0-10/|
|---------------------|--------------|---------------|-------------------|
|3--------------------|--------------|---------------|-------------------|
|[acoustic]                          |[acoustic]                         |
|G                   E|E      E E    |G             E|E      E E         |


         |G                  |D          G    |D          G    |D    |      
Then I'll get on my knees and pray                               (We don't get)
         |[electric 1]                                             *        
         |-------------------|2---------------|2---------------|2----|------
         |---12~------(12)\--|3----------3----|3---------------|3----|------
         |-------------------|2-------2--0----|2---------------|2----|------
         |12-----------12\-0-|0-------x--0---x|0--------(0)----|0----|------
         |-------------------|---------------x|------------3^--|-----|------
         |-------------------|-----------3----|----------------|-----|------
         |[electric 2]                                                      
         |-------------------|---------------|-----------------|2----|------
         |-------------------|---------------|-----------------|3----|------
         |-------------------|---------------|-----------------|2----|------
         |-------------------|---------------|---------------x-|0----|------
         |-------------------|---------------|-----------------|-----|------
         |-------------------|---------------|-----------------|-----|------
         |[acoustic]                                                        
         |G       G          |D          G    |D          G G  |D    |      
         |-------------------|2---------2-3---|2----------2-3--|2----|------
         |-------------------|3---------3-3---|3----------3-3--|3----|------
         |-------------------|2---------2-0---|2----------2-0--|2----|------
         |-----------------0-|0-0-0-0-0-0-0-0-|0-0-0-0-0--0-0--|0----|------
         |-------------------|----------------|----------------|-----|------
         |-------------------|----------------|-------------3--|-----|------


                       |A     |   G    D   |A     | G    D     |
We don't get fooled again                                       
                   [electric 1]                                |
                   ----|------|---3----2---|------|------2-----|
                   ----|------|---3----3---|------|-3----3-----|
                   ----|2-----|x--0----2---|2-----|-0----2-----|
                   ----|2-----|x--0--0-0---|2-----|-0--x-0-----|
                   --0-|0-----|-----------0|0-----|-----------0|
                   ----|------|---3--------|------|-3----------|
                   [electric 2]                                |
                   ----|------|------------|------|------------|
                   ----|------|------------|------|------------|
                   ----|2-----|(2)---------|(2)---|------------|
                   ----|2-----|(2)---------|(2)---|------------|
                   --0-|0-----|(0)---------|(0)---|------------|
                   ----|------|------------|------|------------|
                   [acoustic]                                  |
                      A|A5    |      G D  A|A5    |  G   D D  A|
                   ----|5-----|------3-2---|5-----|----3-2-----|
                   ----|5-----|------3-3--5|5-----|----3-3----5|
                   ----|2-----|------0-2--2|2-----|----0-2----2|
                   ----|2-----|------0-0--2|2-----|----0-0----2|
                   --0-|0-----|-----------0|0-----|-----------0|
                   ----|------|------3-----|------|----3-------|


|A A5 G A A5 G | A5 G  D         |A A5 G A A5 G   | A5 G  D    |
|[electric 1]                                                  |
|---------5----|-5---------------|---5------5-----|------------|
|--5------5----|-5-----3---------|---5------5----3|------------|
|--2------2-0--|-2-----2-2-2-2-2-|---2-0----2----2|------------|
|2-2-0--2---0-2|-2-0-2-4-4-4-4-4-|-2---0--2------4|-----------2|
|0---0--0------|---0-0---0-0-0-0-|-0------0---0--0|-----------0|
|--------------|-----------------|----------------|------------|
|[acoustic]                                                    |
|A5            |       G D     A5|A5              |   GG D D  A|


   |A                |     G D     |A            |     G D      |
The change, it had to come       We knew it all along     (We were)
[electric 1]                                                    |
   |-----------------|-------------|-------------|--------------|
   |5----------------|-------------|-------------|--------------|
   |2----------------|----x--------|----2---2~---|--------------|
   |2----------------|----x--------|-------------|---x----------|
   |0----------------|-------0-----|------x------|---x--0-------|
   |-----------------|-------------|-------------|--------------|
[acoustic; repeat verse ptrn]                                   |


       |A         |   G D               |E          |   C   G       |
We were liberated from the fold, that's all                   (And the)
       |[electric 1]                                                |
       |----------|---------------------|--0--------|---------------|
       |----------|---------------------|--0--------|---1---3-------|
       |---2---2~-|-----------x---------|--4--------|---0---0-------|
       |---x------|-----------x---------|--2--------|---2---0-------|
       |0----x----|---------------0-----|-----------|---3---------0-|
       |----------|------------------3^-|0----------|-----3---------|


       |A                   |   G   D         |A             |     G D         |
And the world looks just the same          And history ain't changed   ('cause the)
       |[electric 1]                                                           |
       |5-------------------|--9-\--9-\-----5-|--------------|--9-\--9-\-----5-|
       |5-------------------|--10\--10\-----5-|--------------|--10\--10\-----5-|
       |2-------------------|--9-\--9-\-----2-|--------------|--9-\--9-\-----2-|
       |2-------------------|---------------2-|--------------|-----------------|
       |----------------(0)-|------------0----|--------------|------------0----|
       |--------------------|-----------------|--------------|-----------------|


       |A         |   G  D              |E          |   C   G       |
'Cause the banners, they all flown in the last war             (I'll)
       |[electric 1]                                                |
       |----------|---------------------|--0---~----|---------------|
       |----------|---------------------|--0---~----|---1-----------|
       |----------|---------------------|--4---~----|---0---0-------|
       |----------|---------------------|--2---~----|---2---0-------|
       |----------|---------------------|--2---~----|---3-----------|
       |----------|---------------------|0----------|-----3-3-------|


[repeat chorus]
    |D      A         |D         A      |D        A        |D        A      |
I'll tip my hat to the new constitution, Take a bow for the new revolution   
    |[electric 1]                                                           |
    |--2--------------|--2-----------5--|---2--------------|--2-------------|
    |3-3--------------|--3--------------|---3--------------|--3-------------|
    |-------2---------|2-----------2----|---------2--------|----------2-----|
    |-----------------|-----------------|0-----------------|0-------0-------|
    |-----0-----------|----------0------|-----0-0----------|------0---------|
    |-----------------|-----------------|------------------|----------------|
    |[acoustic]                                                             |
    |D   A A          |D       A A    D |D    A A         D|D      A A      |


|D         A          |D        A       |
 Smile and grin at the change all around 
|[electric 1]                           |
|-0h2-----------------|--2--------------|
|-3-------------------|--3--------------|
|2---------2----------|--2-------2------|
|----------2----------|0---------2------|
|--------0------------|------0-0-----0--|
|---------------------|---------------2/|


|G                    |E7     E6  E7        |G               |E7   E6  E7         |
 Pick up my guitar and play                  Just like yesterday           Then I'll
|[electric 1]                                                                     |
|-----3---------------|---------------------|--------------12|----12-----12-------|
|-----3----------x----|10^\p8---8--8^-------|-----12---------|15^---15^----15^~---|
|---------------------|------9--------9~-x--|----------------|--------------------|
|---------------------|--------------------0|10/12-----------|--------------------|
|---------------------|---------------------|----------------|--------------------|
|3--------------------|---------------------|----------------|--------------------|
[electric 2]                                                                      |
|------------3--------|-----0----0----0-----|----------------|--------------------|
|---------3----3------|-------0---------/5--|--------3-------|--------------------|
|------0---------0----|-------------0-------|-----0----0---0-|--1----2------------|
|---0--------------0--|-------------2-------|--0---------0---|--2----2----2-------|
|---------------------|2--------------------|----------------|--2----4-p2-2-------|
|3--------------------|--0------------------|3---------------|0----0------0-------|


|G                  |D           G/D|D       G/D   |D7    |                   |
 Get on my knees and pray                            We don't get fooled again 
[electric 1]                                                                  |
|---/7--------------|2------------3-|2--------3----|5-----|10-----------------|
|---/8--------------|3------------3-|3--------3-3--|3-----|7------------------|
|---/7------------2-|-------------4-|2--------4----|5----7|7------------------|
|---------------0---|---------------|0-------------|------|----------------2/2|
|-------------------|---------------|--------------|------|----------------0/0|
|-------------------|---------------|--------------|------|-------------------|
|[electric 2]                                                                 |
|-----3-------------|--2------------|--------------|------|-------------------|
|-------3-----------|---3-/7--7-----|8---10--------|------|-------------------|
|---------0---0-----|-----/7----7---|--7---7-0--7--|------|-------------------|
|-----------0-------|0----/7------7-|----------9---|------|-------------------|
|-------------------|---------------|--------------|------|------------------0|
|/3-----------------|---------------|--------------|------|-------------------|
[elec 3; overdub]                                                              
|-------------------|---------------|--------------|------|-------------------|
|-------------------|---------------|--------------|------|-------------------|
|-------------------|---------------|--------------|<7>---|<7>----------------|
|-------------------|---------------|-----------<7>|------|-------------------|
|-------------------|---------------|--------------|------|-------------------|
|-------------------|---------------|--------------|------|-------------------|
[acoustic]                                         |      |                   |
|G                  |D           D G|D         D G |D     |                  G|


|A     |      G   D   |A     |   G          |A    A  (G) A   |   A (G) G  D   |
    no, no                                                                     
[electric 1]                                                                  |
|------|------3---2---|------|---3----------|----------------|----------------|
|------|------3---3---|------|---3----------|----------------|---------3--3---|
|2-----|------0---2---|------|---0----------|2-x--2------2---|x--2-----2--2---|
|2-----|------0-------|2-----|---0----------|2-x--2------2--x|x--2-----4--4---|
|0-----|--------------|0-----|--------------|0-x--0------0--x|x--0---0--------|
|------|------3-------|------|3--3----------|---------3------|-----3----------|
[electric 2]   []                                                             |
|------|--------------|--5---|--------------|----------------|----------------|
|------|--------------|--5---|--------------|----------------|----------------|
|2-----|--------4^\-2-|--2---|--------------|2---------------|----------------|
|2-----|--------------|------|--------------|2---------------|----------------|
|0-----|--------------|------|-------------0|0---------------|---------------0|
|------|--------------|------|--------------|----------------|----------------|
[acoustic]                                                                    |
|A     |    GGG  DD AA|A     | GGG G   D D A|A AAA AAA AAA AA|G GGG GGD DDD DD|
|5-----|------3---2---|5-----|-333-3--------|----9-----------|7---------------|
|5-----|----333--33---|5-----|-333-3---3-3--|----10----------|8-----------7---|
|2-----|----000--22-22|2-----|-000-0---2-2-2|2---9-----------|7-----------7---|
|2-----|----000--00-22|2-----|-000-0---4-4-2|2---11----------|9-----------7---|
|0-----|------------00|0-----|-------------0|0-000---0---0---|0---0---0---0---|
|------|----333-------|------|-333----------|----------------|----------------|


|A    A  (G) A   |   A (G) G  D   |A    A  (G) A   |   A (G) G  D   |
[electric 1]                      |                                 |
|----------------|----------------|----------------|----------------|
|----------------|---------3--3---|----------------|---------3--3---|
|2--x--2-----2--x|x--2-----2--2---|2--x--2-----2--x|x--2-----2--2---|
|2--x--2-----2--x|x--2-----4--4---|2--x--2-----2--x|x--2-----4--4---|
|0--x--0-----0---|x--0---0--------|0--x--0-----0--x|x--0---0--------|
|---------3------|-----3----------|---------3------|-----3----------|
[electric 2]                      |                                 |
|----------------|---------3--2---|----------------|---------3--2---|
|----------------|---------3--3---|----------------|---------3--3---|
|2----2-2----2--x|x--2-----0--2---|2-----2-2---2--x|x--2-----0--2---|
|2----2-2----2--x|x--2-----0--0---|2--x--2-2---2--x|x--2-----0--0---|
|0----0-0----0--x|x--0---0--------|0--x--0-0---0--x|x--0---0--------|
|---------3------|-----3----------|---------3------|-----3----------|
[acoustic]                        |                                 |
|A AAA AAA AAA AA|G GGG GGD DDD DD|A AAA AAA AAA AA|G GGG GGD DDD DD|
|9---------------|7---------------|9---------------|7-------10------|
|10--------------|8-------7-------|10--------------|8-------10------|
|9---------------|7-------7-------|9---------------|7-------7-------|
|11--------------|9-------7-------|11--------------|9-------7-------|
|0---0---0---0---|0---0---0---0---|0---------------|----------------|
|----------------|----------------|----------------|----------------|


|A    A  (G) A   |   A (G) G  D   |
[electric 1]                      |
|----------------|----------------|
|----------------|---------3--3---|
|2----2-2----2--x|x--2-----2--2---|
|2-x--2-2----2--x|x--2-----4--4---|
|0-x--0-0----0--x|x--0---0--------|
|---------3------|-----3----------|
[electric 2]                      |
|----------------|---------3--2---|
|----------------|---------3--3---|
|2----2-2----2--x|x--2-----0--2---|
|2-x--2-2----2--x|x--2-----0--0---|
|0-x--0-0----0--x|x--0---0--------|
|---------3------|-----3----------|
[acoustic]                        |
|A AAA AAA AAA AA|G GGG GGD DDD DD|
|9---------------|7---------10----|
|10--------------|8---------10----|
|9---------------|7---------7-----|
|11--------------|9---------7-----|
|0---------------|----------------|
|----------------|----------------|


|A A5 G A5 G   A|    D....         |A A5 G A5 G   A|    D....          |
|[electric 1]                                                          |
|--5-----5------|------------------|--5-----5------|-------------------|
|--5-0---5-0----|----3-3-3-3-3-3-3-|--5-0---5-0----|----3-3-3-3-3-3-3--|
|--2-0---2-0----|-2--2-2-2-2-2-2-2-|--2-0---2-0----|-2--2-2-2-2-2-2-2--|
|------2-----2--|-2--4-4-4-4-4-4-4-|------2-----2--|-2--4-4-4-4-4-4-4--|
|0------------0-|------------------|0------------0-|-------------------|
|---------------|------------------|---------------|-------------------|
|[electric 2]                                                          |
|--5-----5-----5|-----5------------|--5-----5-----5|-----5-------------|
|--5-----5-----5|-----5------3-----|--5-----5-----5|-----5------3------|
|--2-----2-0---2|-0---2--0h2-2-----|--2-----2-0---2|-0---2------2------|
|----0-2---0-2--|-0-2----0h2-4-----|----0-2---0-2--|-0-2----0-2-4----2-|
|0-----0-----0--|---0--------------|0---0-0-----0--|---0------0------0-|
|---------------|------------------|---------------|-------------------|
|[acoustic]                                                            |
|               %                  |               %                   |


|A  A5 G A5 G A    |  D                |A A5 G A5  G   A     |  D             |
                                                                        (I'll) 
|[electric 1]                                                                  
|--5-----5---------|-------------------|--5------5-----------|----------------|
|--5-0---5-0-------|----3-3-3-3-3-3-3--|--5--0---5-----------|3---------------|
|--2-0---2-0-------|-2--2-2-2-2-2-2-2--|--2--0---2-----------|2---------------|
|-------2----2-----|-2--4-4-4-4-4-4-4--|-------2-------------|4---------------|
|0-------------0---|-------------------|0-------------------0|0---------------|
|------------------|-------------------|---------------------|----------------|
|[electric 2]                                                                 |
|------------------|-------------------|---------------------|------0---------|
|------------------|-------------------|---------------------|--2-----2-------|
|--4^\2-----2------|---2--2-4^-4--2----|2-2/2---2/2/2-2/2-2-2|4---4^---^4\----|
|-------4----------|----------------4--|------0--------------|----------------|
|0------------3^-0-|3^--3^-------------|---------------------|----------------|
|------------------|-------------------|---------------------|----------------|
[acoustic]                                                                    |
|                  %                   |                     %                |

[330]
    |B      Bsus4      |B       Bsus4      |
I'll move myself and my family aside        
    |[electric 1]                          |
    |------------------|-------------------|
    |------------------|-------------------|
    |------------------|-------------------|
    |--------------x---|--------7----------|
    |2-(2)--()-----x---|--2-4/9---9p7---7--|
    |------------------|--------------9----|
    |[electric 2]                          |
    |------------------|-------------------|
    |------------------|-------------------|
    |------------------|-------------------|
    |--4---------------|4------------------|
    |2-2-------------2-|2------------------|
    |------------------|----------------3^-|
    |[acoustic]                            |
    |B    B B        B |B      B B       E |
    |------------------|-------------------|
    |------------------|-------------------|
    |------------------|-------------------|
    |-------------4-6-4|---------------4---|
    |2------2-4/6------|6p4/2----2-4/6--6\4|
    |------------------|-------------------|


|E     E6             |E7ii      E6            |
    If we happen to be left half alive    (I'll)
|[electric 1]                                  |
|------0--------------|------------------------|
|------0--------------|------------------------|
|------4--------------|------------------------|
|------2--------------|----------x----2----2--2|
|---------------------|----------x------------0|
|0--------------------|------------3^(0)-3^----|
|[electric 2]                                  |
|------0----0----0----|------------------------|
|------0------/5------|------------------------|
|------4--------------|------------------------|
|------2--------------|---------------0--0-----|
|---------------------|------------0--------0--|
|0--------------------|------------------------|
[acoustic]                                     |
|E   E E6          E7 |E7      E6 E6         A |
|---------------------|------------------------|
|---------------------|------------------------|
|---------------------|------------------------|
|2---------2----------|--2---------------------|
|2--------------------|---------------0-2-0----|
|0-----0/4----------0/|4---------0h3--------3--|


    |A                    |                           |
I'll get all my papers and smile at the sky, though I  
[electric 1]                                          |
    |----5----------------|----5----------------------|
    |----5----------------|--5------------------------|
    |-------------------4^|/---------^4^\--0---2------|
    |---------------------|----------------4----------|
    |---------------------|------------------------0--|
    |---------------------|---------------------------|
[electric 2]                                          |
    |-5-------------------|----5----------------------|
    |-5-------------------|--5------------------------|
    |-2--------------2--4^|/---------^4^\-------------|
    |2---------------2----|---------------------------|
    |0---------3^p0-------|-------------------0-------|
    |---------------------|---------------------------|
[acoustic]                                            |
    |A    A A6          A |A         A A6           B |
    |---------------------|---0-----------------------|
    |---------------------|-----2---------------------|
    |-----------2-------2-|-------2-------2----------/|
    |--------2-------2----|-----------------4-2------/|
    |0----4-------4-------|---------------------------|
    |---------------------|---------------------------|


|B                       |B7        B         |
 Know that the hypnotized never lie            
[electric 1]                                  |
|------------------------|--------------------|
|--------------------5---|--5------5----------|
|--------------------4---|--4------4----------|
|------------------------|--4------4----------|
|2-----------------2-----|2-----2----------2--|
|------------------------|--------------------|
[electric 2]             |                    |
|------------------------|--------------------|
|------------------------|--------------------|
|-------------4----------|----------------4-4-|
|------2---4--4----------|----------------4-4-|
|2-2----------2----------|----------------2-2-|
|------------------------|--------------------|
[acoustic]               |                    |
|B B      B   B B     A/B|B         B B B A/B |
|---7------5-------------|2-------2-----------|
|------------------------|--------------------|
|---------4------------2-|-----2-------x----4-|
|7-----------------------|-------------x----4-|
|----------------------2-|-----2-------x----0-|
|------------------------|--------------------|


|B   B       |  A    E       |B    B      |  A    E E  |
[electric 1]                                           |
|------------|---------------|------------|------------|
|-------x-x--|-x---x---------|--------x-x-|x---0-------|
|4---4--x-x-4|-x-2-x---------|4----4--x-x-|x-2-x----4--|
|4---4--x-x-4|-x-2-x---------|4----4--x-x-|x-2-x--2-2--|
|2---2--x-x-2|-x-0-x---2----0|2----2--x-x-|x-0----2-2-0|
|------------|-------0-0-----|------------|---------0--|
[electric 2; copy electric 1]                          |
[acoustic]                                             |
|B           |   A   E E     |B           |   A   E E  |
|------------|-------0-0-----|------------|---------0--|
|------------|-------0-0-----|------------|---------0--|
|4-4-4-4---x-|---2---4-4-----|4--------x-x|-x-2-----4--|
|4-4-4-4---x-|---2---2-2--x--|4--------x-x|-x-2-x---2--|
|2-2-2-2---x-|-x-0---2-2--x-0|2--------x-x|-x-0-x-----0|
|------------|-----x-0-0-----|------------|-------0----|


|B   B       |   A     E   |B    B      |  A    E    |
   Do ya?                                             
|[electric 1]                                        |
|------------|-------------|------------|-------0----|
|-------x-x--|-x-----------|--------x-x-|x---0--0----|
|4---4--x-x--|-x-2-x-------|4----4--x-x-|x-2-x--4-4--|
|4---4--x-x--|-x-2-x---2---|4----4--x-x-|x-2-x--2-2--|
|2---2--x-x--|-x-0-----2--x|2----2--x-x-|x-0------2--|
|------------|-------0-0---|------------|---------0--|
[electric 2; copy electric 1]                        |
[acoustic]               B/A                         |
|B           |   A     E  B|B           |  A   E E  B|
|------------|---------0---|------------|--------0---|
|------------|---------0---|------------|--------0---|
|4-----------|---2-----4---|4-----------|--2-----4---|
|4-----------|---2-----2--4|4-----------|--2-----2---|
|2-----------|---0-----2--0|2-----------|--0-----2--0|
|------------|-------0-0---|------------|------0-----|


|B         |x        E          |B                          |x            E         |
[electric 1]                                                                        |
|-----(7)--|-----0---------7----|---------------------------|-----------------------|
|--7-------|-----0-----------9^-|10~10--10/x/10--10-10/10/10|10~--10---9/9/9--9/9^-9|
|--7^------|--9^-9---7^---------|---------------------------|-----------------------|
|------9~~~|-----------9--------|---------------------------|-----------------------|
|----------|--------------------|---------------------------|-----------------------|
|----------|--------------------|---------------------------|-----------------------|
[electric 2]                                                                        |
|-----(7)--|---------------7----|---------------------------|-----------------------|
|--7-------|-----------------10-|10--10^---------10^\-10-7--|-----------------------|
|--7^------|--9^\-7--7^---------|---------------------------|9^-9--7^-----7^--------|
|------9~~~|--------9----9------|---------------------------|--------9----------9\--|
|----------|--------------------|---------------------------|-----------------------|
|----------|--------------------|---------------------------|-----------------------|
[acoustic  ]                                                                        |
|B         |   A  E E        B/A|B                          |    A       E E       B|


|B            |      E              |B                 |x     E        |
[electric 1]                                                           |
|-----------7-|---------------------|------------------|---------------|
|7------------|--12--12------12-12--|12--12-----7---7--|--7--7---------|
|---7^--------|--14^--^14\---14-14--|14^-13-----6^--6^-|--6^-6^\---0---|
|------9~~----|---------------------|------------------|----------6-0--|
|-------------|---------------------|------------------|---------------|
|-------------|---------------------|------------------|---------------|
[electric 2]                                                           |
|----------0--|-0--0----------------|------------------|--0----0-------|
|-----4\2----0|/5--5--~-------------|---/4--3/4-4-3--2-|0---0--0-------|
|-------------|---------------------|------------------|1--------------|
|--2/4-\-2----|---------------------|---/4--3/4-4-3--2-|2--------------|
|-------------|---------------------|------------------|--------------0|
|-------------|---------------------|------------------|-----------0---|
[acoustic]                                                             |
|B            |      A  E E      B/A|B                 |    A  E E    B|


|B            |x   E             |B               |E             |
[electric 1]                                                     |
|-------------|------------------|----------------|--------------|
|-------------|------------------|----------------|--------------|
|----2h4-2--4~|--4-2---2---------|----------------|--2-----------|
|2-4--------x-|------4---0-----4-|--2-4---2-4-2---|--2-----------|
|-------------|0-----------0-2---|2*----2*------(2)--0-----------|
|-------------|------------------|----------------|--------------|
|                                  *let ring    p.m.             |
[electric 2]                                                     |
|-------------|------------------|----------0-0---|--------------|
|-------------|------------------|-2/4-4\-------4/|5~------------|
|----4--------|------2-----------|----------------|--------------|
|----4----4---|------2-2-2-------|-2/4-4\---------|---------0-0--|
|2------0h2-0-|2-0-----0-2-------|----------------|--------------|
|------------2|------2---0-------|----------------|--------------|
[acoustic]                                                       |
|B            |      A  E E     B|B               |    A  E E    |


|B                    |    E             |B                 |  E     |
[electric 1]                                                         |
|---------------------|--0----------0----|------------------|--0-----|
|2/4-3/4\3-3/4-3\2-0--|---/5-----5-------|----4---4-3\2--0--|--0-----|
|---------------------|------------------|---------------1--|--1-----|
|2/4-3/4\3-3/4-3-2----|----------------0-|2/4---4-4-3-2-(2)-|--2-----|
|---------------------|------------------|------------------|--------|
|--------------------0|------------------|-----------------0|--------|
[electric 2]                                                         |
|---------------------|------------------|------------------|--------|
|---------------------|------------------|------------------|--------|
|4-----------4-------2|------------------|------------------|--------|
|4-----------4-------2|------------------|------------------|--------|
|2-----------2--------|------------------|------------------|--------|
|---------------------|------------------|------------------|--------|
[acoustic tacit]                                                     |
|B                    |                  |                  |        |


|A   |  G D    |A   |  G D    |A   |  G D    |A   |  G D D         |
                               Yeah!                      (There's) 
[electric 1]                                                       |
|----|--3-2----|----|--3-2----|----|--3-2----|----|--3---2---------|
|----|--3-3----|----|--3-3----|----|--3-3----|----|--3---3---------|
*2---|--0-2----|2---|--0-2----|2---|--0-2----|2---|2-0---2---------|
*2---|--0-0----|2---|--0-0----|2---|--0-0----|2---|--0---0--------2|
*0---|---------|0---|---------|0---|---------|0---|---------------0|
|----|--3------|----|--3------|----|--3------|----|--3-------------|
[electric 2]                                                       |
|----|--3-2----|----|--3-2----|----|--3-2----|----|--3---2---------|
|----|--3-3----|----|--3-3----|----|--3-3----|----|--3---3---------|
|2---|--0-2----|2---|--0-2----|2---|--0-2----|2---|--0---2---------|
|2---|--0-0----|2---|--0-0----|2---|--0-0----|2---|--0---0---------|
|0---|---------|0---|---------|0---|---------|0---|----------------|
|----|--3------|----|--3------|----|--3------|----|--3-------------|
[acoustic]                                                         |
|----|--3-2----|5---|--3-2----|----|--3-2----|5---|--3-3-2---------|
|----|--3-3----|5---|--3-3----|----|--3-3----|5---|--3-3-3---------|
|2---|--0-2----|2---|--0-2----|2---|--0-2----|2---|--0-0-2---------|
|2---|--0-0----|2---|--0-0----|2---|--0-0----|2---|--0-0-0---------|
|0---|---------|0---|---------|0---|---------|0---|----------------|
|----|--3------|----|--3------|----|--3------|----|--3-------------|

       |A              |   G D           |A              |      G     D  |
There's nothing in the street   looks any different to me            (and the)
[electric 1]                                                             |
       |--------5------|-----------------|---------------|---------------|
       |--------5------|-----------------|---------------|---------------|
       |--------2------|-----x-----------|---2-----------|----x----------|
       |2--------------|-----x-----------|---------------|----x----------|
       |0--------------|-----------0-----|0--------------|---------0-----|
       |---------------|-----------------|---------------|---------------|
[electric 2]                                                             |
       |----5---5------|-----------------|---------------|---------3--2--|
       |----5---5------|-----------------|---------------|------3--3--3--|
       |----2---2--2-2-|-4^\p2---2-------|-------2-----x-|-x-x--2--2--2--|
       |-----------2---|-------4---0-----|--x--2-2-----x-|-x-x--0--0--0--|
       |0-----0--------|-----------3^----|0-x--0-0-----x-|---------------|
       |---------------|-----------------|---------------|---------------|
[acoustic; follow verse pattern]


       |A             |   G  D       |E       |       C   G     |
And the slogans are replaced by-the-by                     (and the)
[electric 1]                                                    |
       |----5---------|--------------|--0-----|-----------3-----|
       |----5---------|--------------|--0-----|---1-1-1---3-----|
       |----2---------|---x----------|--4-----|---0-0-0---0-----|
       |--------------|---x----------|--2-----|---2-2-2---0-----|
       |0-------------|-----0--*-----|2-2-----|---3-3-3-------0-|
       |--------------|-----------3^-|0-------|---------3-3-----|
[electric 2]                                                    |
       |--------------|-------3-2----|--------|-----------------|
       |--------------|-------3-3----|--------|-----------------|
       |---------2---x|---x---0-2----|--------|-----------------|
       |2---x----2---x|---x---0-0----|--------|-----------------|
       |0---x--0-0---x|-0-0----------|--------|-----------------|
       |--------------|--------------|--------|-----------------|
[acoustic]                                                      |
       |--------------|---------2----|--0---0-|------0--3-3-----|
       |5--------5----|---------3----|--0---0-|----1-1--3-3--33-|
       |2--------2----|2--------2----|--1---1-|----0-0--0-0--00-|
       |2--------2----|2--------0----|--2---2-|----2-2--0-0--00-|
       |0------0-0---0|0------0------|--2---2-|3-3-3-3----------|
       |--------------|--------------|0-0-0-0-|---------3-3-----|

 [455]
       |A             |   G  D       |A             |      G  D       |
And the parting on the left    is now parting on the right     (and the)
[electric 1] (* let ring)                                             |
       |5*------------|--------------|--------------|-----------------|
       |5*------------|--------------|--------------|-----------------|
       |2-------------|x-----------2-|--------------|-----------------|
       |--------------|--------------|--------------|-----------------|
       |(0)-----------|---0-------0--|0-------------|------0-------0--|
       |--------------|--------------|--------------|-----------------|
[electric 2]                                                          |
       |--------------|--------------|---5*---------|-----------------|
       |--------------|x-------------|-5*-----------|-----------------|
       |----4^\2---2-2|x----------2*-|-2*-----------|----------------0|
       |---------4----|x-------------|--------------|---------------x-|
       |0-------------|x--0----3^----|0*------------|------0-------0--|
       |--------------|--------------|--------------|-----------------|

       |A                    |      G  D        |E        |      C  G     |
And the beards have all grown longer overnight                       (I'll)
[electric 1]                                       d(rake)                |
       |---------------------|---------5--------|---------|---------3-----|
       |---------------------|------------------|--0------|---------3-----|
       |2--------------------|---------2--------|--4------|--0---0--0-----|
       |---------------------|----------------0-|--2------|--2-2-2--0-----|
       |--0------------------|------------------|--2------|--3-3-3--------|
       |---------------------|------------------|0--------|--------3------|
[electric 2]                                                              |
       |---------------------|-----------------0|0--------|---------------|
       |---------------------|------------------|0--------|---------------|
       |h2-----2----2--------|2-----2-----------|---------|---------------|
       |---------------------|------0-----------|---------|---------------|
       |--0------x----------x|0-----------------|---------|---------------|
       |---------------------|--------3p0-------|---------|---------------|
       |[acoustic]                                                        |
       |A      A    A       A|D     D D       E |E   E E  |      C G G    |


[repeat chorus]
    |D      A         |D         A      |D      A          |D        A      |
I'll tip my hat to the new constitution. Take a bow for the new revolution   
[electric 1]          |                 |                  |                |
    |2----------------|-----------------|2--------5--------|2--------5------|
    |3----------------|3----------------|3--------5--------|3--------5------|
    |2------2---------|2---------2------|2--------2--------|2--------2------|
    |0------2--------0|0---------2-----0|---------2--------|0--------2------|
    |-----0-----------|------x---0------|-------0----------|-------0--------|
    |-----------------|-----------------|------------------|----------------|
[electric 2]                                                                |
    |-----------------|2----------------|------------------|--2--------5----|
    |---7\------------|3----------------|---7~-------------|--3--------5----|
    |-------0-()-2----|2---------2------|-------5^~--------|2--------2-----0|
    |5/7--0----2-----0|----------2-----0|5/7--7----7------0|0-------------0-|
    |-----------------|--------0-0------|-----------------0|-------0---0----|
    |-----------------|-----------------|------------------|----------------|
                             [fingering: r  p r i  r]                        
[acoustic; follow chorus pattern]                                           |


|D         A          |D        A       |
 Smile and grin at the change all around 
[electric 1]                            |
|2---------5----------|2--------5-------|
|3---------5----------|3--------5-------|
|2---------2----------|2--------2-------|
|0---------2---------0|---------2-------|
|--------0-0----------|-------0-0-------|
|---------------------|-----------------|
[electric 2]                            |
|---2-----------------|--2-2------------|
|---3-----------------|--3-3------------|
|2-----------2--------|-----------2-----|
|0-----------2-------0|------0----2-----|
|----------0----------|---------0-------|
|---------------------|--------------0-2|


|G                   |E7   E6  E7            |G                 |E7   E6  E7         |
Pick up my guitar and play                    Just like yesterday           Then I'll 
[electric 1]                                 |electric 1]                            |
|------------------12|---12------------------|------------------|--------------------|
|--------------------|-----15-12-------------|------------------|9----7---5---7--5---|
|0---------()--------|-----------14^-14-12^--|------------------|--------------------|
|0---------()--------|---------------------14|12~~~----------7/9|---7---6------------|
|--------------------|-----------------------|------------------|--------------------|
|3-------------------|-----------------------|------------------|--------------------|
[electric 2]                                 |electric 2]                            |
|---3----------------|4----------------------|------------------|--------------------|
|---3----------------|--------7-----5~-------|-----10^(12)-7--x-|8^--------12--------|
|----------------2/4-|-----------------------|------------------|--9\----------------|
|--------------------|---0-------0-----------|------------------|------9/12------0---|
|--------------------|-----------------------|------------------|------------------0-|
|3-------------------|-----------------------|------------------|--------------------|


|G                   D     G/D|D       Dsus4|D     |                   |
 get on my knees and pray                  We don't get fooled again    
[electric 1]                                                           |
|-------------------|---2--3--|5--------h3--|2-()--|-------------------|
|7^~---^7\----5--7--|----3--3-|--------3-3--|3-()--|-------------------|
|-------------------|0h2--2--2|2-----2-2----|2-()--|----------------2/2|
|-------------------|---------|----0---0----|0-()--|----------------2/2|
|-------------------|---------|-------------|------|----------------0/0|
|-------------------|---------|-------------|------|-------------------|
[electric 2]                                                           |
|-------------------|---------|10---10------|------|-------------------|
|--12-----/9--------|8-7---8--|7---------8--|------|-------------------|
|-------------0-----|--7---7-7|7------------|------|----------------2/2|
|12---0--/9----0-7/9|---------|---7----7----|------|----------------2/2|
|-------------------|---------|-------------|------|----------------0/0|
|-------------------|---------|-------------|------|-------------------|
[acoustic]                                                             |
|G   G              |D     D G|D     D Dsus4|D     |                   |


|A      |   G           D/A     |A     | G D/A       |
          Don't get fooled again         no, no       
[electric 1]                    |      |             |
|-------|-----------------------|------|-------------|
|-------|-----------------------|------|------3------|
|2------|-----------------2-----|2-----|------2---2/2|
|2------|-----------------4-----|2-----|------4---2/2|
|0------|-----------------0-----|0-----|----------0/0|
|-------|-----------------------|------|-------------|
[electric 2]                                         |
|-------|-----------------------|------|-------------|
|-------|-----------------------|------|-------------|
|2------|-----------------------|2-----|-------------|
|2------|----------------------2|2-----|----------2/2|
|0------|--------------------0/0|0-----|----------0/0|
|-------|-----------------------|------|-------------|
[acoustic, tacit:]                                   |
|A5     |                       |      |             |
|5------|-----------------------|------|-------------|
|5------|-----------------------|------|-------------|
|2------|-----------------------|------|-------------|
|2------|-----------------------|------|-------------|
|0------|-----------------------|------|-------------|
|-------|-----------------------|------|-------------|


|A      |  G  D/A  |A        | G D   |
[electric 1]                         |
|-------|----------|---------|-------|
|-------|---3------|------3--|-------|
|2------|---2------|2-----0--|-------|
|2------|---4------|2-----0--|------0|
|0------|---------0|0-----0--|------0|
|-------|----------|---------|-------|
[electric 2]       |         |       |
|5------|----------|5--------|-------|
|5------|----------|5--------|------0|
|2------|----------|2--------|------0|
|2------|----------|2--------|-------|
|0------|----------|0----~-~-|-------|
|-------|----------|---------|-------|
[acoustic]                           |
|       |          |         |    A A|

[electric 2]     [palm mute]                             [pm]             |
||:A A5 G A5 G A   |      D....         |A               |                |
[electric 1]                                                              |
||---5-----5-----5-|--------------------|--5-------------|----------------|
||---5-0---5-----5-|------3-3-3-3-3-3-3-|--5-0---5-0-----|--3-3-3-3-3-3-3-|
||.--2-0---2-0-2-2-|---2--2-2-2-2-2-2-2-|--2-0---2-0---2-|--2-2-2-2-2-2-2-|
||.2-----2---0-2---|2--4--4-4-4-4-4-4-4-|------2---0-2-2-|--4-4-4-4-4-4-4-|
||-0---------------|0--0--0-0-0-0-0-0--x|0---------------|--0-0-0-0-0-0-0-|
||-----------------|--------------------|----------------|----------------|
[electric 2; overdub                                      * let ring]     |
||-----------------|--------------------|----------------|----------------|
||-----------------|--------------------|----------------|----------------|
||--4^\4p2---2~----|----4^-4-2-4-4^\-2--|2--------2----2-|**********------|
||----------4------|------------------4-|---------4------|**********------|
||-----------------|--------------------|--3^-0----------|----------------|
||-----------------|--------------------|----------------|----------------|
||[acoustic in; pattern]                |                |                |
||A5               |     G     D/A    AA|A5              |      G  D/A  AA|


[electric 1]      [pm]                                               |
|--5-----5------5-|----------------|--5-------------|----------------|
|--5-0---5------5-|--3-3-3-3-3-3-3-|--5-----5-------|----------------|
|--2-0-2-2-0-2--2-|--2-2-2-2-2-2-2-|--2-0-2-2-2-----|----------------|
|------2---0-2----|--4-4-4-4-4-4-4-|------2-2-2-2---|-2--------2-----|
|0-------0---0----|0-x-x-x-x-x-x-x-|0-----------0-3^|-0-0-3^-0-0-3^-0|
|-----------------|----------------|----------------|--------x-------|
|[acoustic]                                                          |
|A5               |    G    D    AA|A5              |    G   D      A|


[electric 1]                                                               |
|--5-0---5-------|--2---2/2/2--|---------------------|---------------------|
|--5-0-2-5-----3-|--3---3/3/3--|--2------------------|---------------------|
|--2-0-2-2-0-2-0-|--2---2/2/2--|--2p0-2p0-2p0-2p0-2p0|-2p0-2p0-2p0-2p0-----|
|x-----2---0-2-0-|--0---0/0/0--|---------------------|------------------2--|
|0---------------|------------0|0----3---3---3---3---|3---3---3---3---0-0-0|
|--------------3-|-------------|---------------------|---------------------|
|[acoustic]                                                                |
|A5              |    G    D AA|A5     A5 A5      A5 |A5 G     G  D     A A|


[electric 1]                                                                |
|-----------|--3-2-3-2-2---|----12^\-12^------12^-|-12-12^-12---------------|
|-----------|--3-3-3-3-3-0-|----13^\-13^--13--13^-|----13^-13^\----13-12-14-|
|2---2---2--|--0-2-0-2-2-0-|----12^\-12^--12------|----12^-12------12-12-14-|
|2---2---2--|--0-0-0-0---0-|----------------------|-------------------------|
|0---0---0--|0-------------|----------------------|-------------------------|
|-----------|--------------|----------------------|-------------------------|
|[acoustic]                                                                 |
|A5 A5 A5 A5|A5 G   G  D AA|A5     A5  A5      A5 |A5 G     G   D        A A|


[electric 1]                                                                 |
|------------------7-|--------0-5-5----|---------------------|------3--2-----|
|0---7-5^---7-5^---7-|----7---0-5-5--7^|-----5^---7^-5-------|------3--3-----|
|0---7-5^-0-7-5^-0-7-|5-0-7-5--------7^|0-7^-5^-0-7^-5-0-2---|----x-0--2-----|
|----7-5^-0--------7-|5-0-7-5--------7^|0-7^-5^-0-7^-5-0-2---|2---x-0--0-----|
|--------------------|-----------------|-----------------0---|0---x-------0--|
|--------------------|-----------------|---------------------|------3--------|
[electric 2]                                             [pick scrape]       |
|--------------------|-----------------|---------------------|---------------|
|--------------------|-----------------|---------------------|---------------|
|--------------------|-----------------|---------------------|---------------|
|--------------------|-----------------|---------------------|---------------|
|--------------------|-----------------|---------------------|---------------|
|--------------------|-----------------|-----------------****|**********-----|
|[acoustic]                                                                  |
|A5    A5 A5       A5|A5  G    G  D  AA|A5      A5 A5     A5 |A5 G   G  D  AA|


[electric 1]                                       [repeat more..]
|----------3|---3/3/3----------|12---12--12--12--12--12--12--12--|
|----------3|---3/3/3---3--3-0-|13---13--13--13--13--13--13--13--|
|2-----2/x-x|---0/0/0---0--2-0-|12^-^12-^12-^12-^12-^12-^12-^12-^|
|2---2/2/x-x|---0/0/0---0----0-|---------------------------------|
|0---0/0/0--|-----0------------|-----------------0---------------|
|-----------|------------------|---------------------------------|
|[acoustic]                                                      |
|A5         |                AA|A5   A5     A5  A5     A5     A5 |
|-----------|------------------|---------------------------------|
|-----------|------------------|---------------------------------|
|2----------|------------------|---------------------------------|
|2----------|------------------|---------------------------------|
|0----------|-----------------0|0--0--0--0--0--0--0--0--0--0--0--|
|-----------|------------------|---------------------------------|


[electric 1]                     |
|12--12--12--12--12--12--12--12--|
|13--13--13--13--13--13--13--13--|
|12-^12-^12-^12-^12-^12-^12-^12-^|
|--------------------------------|
|--------------------------------|
|--------------------------------|
|[acoustic]                      |
|A5 ...                          |
|--------------------------------|
|--------------------------------|
|--------------------------------|
|--------------------------------|
|------------------------------00|
|--------------------------------|


                                              [begin synth interlude]        
|                                  |A5   |    |A5                            
[electric 1]                                  |                              
|------12---------|----------------|5-()-|----|(5)-------------------------(5)
|13^\13--13^\-----|----------------|5-()-|----|(5)---------------------------
|12^\12----12^\--0|5^--------------|2----|----|2-----------------------------
|----------------0|---7-5\-2--2----|2----|----|2-----------------------------
|-----------------|--------3^p0---0|-----|----|0-*********~~~~~~*************
|-----------------|----------------|-----|----|------------------------------
|[acoustic]       |                |     |    |                       [fade]  
|A5 ...           |                |A5 ..|    |A5 ... |A5 ... |A5 ... |A5    |
|-----------------|----------------|-----|----|-------|-------|-------|------|
|-----------------|----------------|-----|----|-------|-------|-------|------|
|-----------------|----------------|-----|----|-------|-------|-------|------|
|-----------------|----------------|-----|----|2-2-2-2|2-2-2-2|-------|------|
|0-000-000-000--00|0-000-000-000-00|--%--|-%--|0-0-0-0|0-0-0-0|-------|------|
|-----------------|----------------|-----|----|-------|-------|-------|------|

[organ interlude]

[drum interlude]                    [2/4] 
|     |    |    |    |    |    |    |    |

      [4/4]
      |A       |   G   D      | A      |  G    D      |
       Yeah!                                           
[electric 1]                       [hard rest]        |
------|--------|-------2------|--------|--------------|
------|--------|-------3------|--------|--3----3------|
---2/2|2-------|---0---2---2/2|2----()x|--0----2------|
---2/2|2-------|---0---0---2/2|2----()-|--0--0-0------|
---0/0|0--0----|-----------0/0|0----()-|-----0-0---0--|
------|--------|---3----------|--------|--3-----------|
[acoustic]                                            |
      |        |   G  D D     |        |  G  D D   A A|
------|--------|---3--2-2-----|5-------|--3----2------|
------|--------|---3--3-3-----|5-------|--3----3------|
------|2-------|---0--2-2--2/2|2-------|--0--2-2---2/2|
------|2-------|---0--0-0--2/2|2-------|--0--0-0---2/2|
------|0-------|-----------0/0|0-------|-----------0/0|
------|--------|---3----------|--------|--3-----------|


|A               |   G   D   |A                  |     G   D     |
 Meet the new boss            Same as the old boss                
[electric 1]                                                     |
|5---------------|---3---2---|-------------------|-----3---2-----|
|5---------------|---3-x-3---|-------------------|-----3---3-----|
|2---------------|---0-x-2---|2------------------|-----0---2-----|
|2---------------|---0-x-0---|2------------------|--x--0-x-0---2/|
|0---------------|---------0/|0------------------|--0--------0/0/|
|----------------|---3-------|-------------------|-----3---------|
|[acoustic]                                                      |
|A5   A5 A5      |   G D D  A|A5      A5         |     G   D    A|
|------5-5------5|5----3-2---|------5-5---------5|5----3---2-----|
|------5-5------5|5----3-3---|------5-5---------5|5----3---3-----|
|2-----2-2------2|2----0-2--2|2-----2-2---------2|2-0--0---2----2|
|2-----2-2------2|2----0-0--2|2-----2-2---------2|2-0--0---0----2|
|0-----0-0------0|0-------xx0|0-----0-0---------0|0----------xx-0|
|----------------|-(3)-3-----|-------------------|-(3)-3---------|

|A       A5         |A5    G D     |A      A5       |A5      G D        |
[electric 1]        |              |                |                   |
|-------------------|--------2-----|----------------|--------3-2--------|
|-------------------|------3-3-----|----------------|------3/3-3--------|
|2-------2--------2-|2-----0-2--x--|2-----2-2-----2/|2-----0/0-2----2---|
|2--x--2/2---x----2-|2-----0-0--x-x|2--x--2-2---2/2/|2-----0/0-0--x-2/2/|
|0--x--0/0---x----0-|0-x----------x|0--x--0-0-x-0/0/|0------------x-0/x/|
|---x--------x------|--3---3-------|---x------x-----|--3----------x-----|
|[acoustic]                                                             |
|A5  A5 A5        A5|A5 G  G D   AA|A5  A5  A5    A5|A5 G    G D     A A|


|A         A5      |A5    G D       |A         A5        |A5    G D     |
[electric 1]       |                |                    |              |
|------------------|--------2-------|--------------------|--------2-----|
|------------------|------3-3-------|--------------------|--------3--3--|
|2-------2-2----2/2|2-----0-2------2|2-------2-2-------2/|2-----0-2--2--|
|2--x--2/2/2-x--2/2|2-----0-0--x-2/2|2--x--2/2/2--x--2/2/|2-----0-0--0-0|
|0--x--0/0/0-x--0/0|0----------x-0/0|0--x--0/0/0--x--0/0/|0------------0|
|---x----x---3-----|--3---3---(3)---|---x---------3------|--3-----------|
|[acoustic]                                                             |
|A5    A5 A5     A5|A5 G  G D   A A |A5    A5 A5      A5 |A5 G  G D  A A|


|A A5 G        |      D/A       |A A5 G        |      D/A          |
[electric 1]                                                       |
|--------5-----|5---------------|--5-----5-----|5------------------|
|--5-----5-0---|5-----3---------|--5-----5-0---|5-0-2-3------------|
|--2-0-2-2-0-2-|2-----2---------|--2-0-2-2-0-2-|2-0-2-2------------|
|--2-0-2-----2-|--2-2-4---------|2---0-2-----2-|----2-4------------|
|0-----0-----0-|--0-------------|0-----0-----0-|-------------------|
|--------------|----------------|--------------|-------------------|
|[acoustic]                                                        |
|A5                G    D        A5                 G    D         |
|5-------------|---3----2----5/5|5-------------|----3----2---------|
|5-------------|---3----3----5/5|5-------------|----3----3---------|
|2-------------|---0----2----2/2|2-------------|----0----2---------|
|2-------------|---0--0-0----2/2|2-------------|----0--0-0----0----|
|0-------------|-------------0/0|0-------------|--------------0--0-|
|--------------|---3------------|--------------|----3--------------|


|A5    A5    |A5   A5      |A       |     |A5  
                                           Hey!
[electric 1]                                   
|--------5---|-------------|--------|-----|----
|--5-5-------|-------------|--------|-----|----
|--4^-^4\-2--|2------------|2--~~~~~|~~~~-|----
|-----------4|-0---------2-|2--~~~~~|~~~~-|2---
|------------|-3^--p0----0-|0--~~~~~|~~~~-|0---
|------------|-------h3^---|--------|-----|----
[electric 2]                  [fbk]            
|------------|-------------|5-------|-----|----
|14----14----|14-----------|5-------|-----|----
|14----14----|14---14---2/2|2-------|-----|----
|14----14----|14---14---2/2|2-------|-----|----
|------0-----|0----0----0/0|0-------|-----|0---
|------------|-------------|--------|-----|----
[electric 3]                                   
|5-----5-----|5----5-------|--------|-----|----
|5-----5-----|5----5-------|--------|-----|----
|2-----2-----|2----2----2/2|2-------|-----|----
|2-----2-----|2----2----2/2|2-------|-----|----
|0-----0-----|0----0----0/0|0-------|-----|----
|------------|-------------|--------|-----|----
|[acoustic]                                    
|A5    A5    |A5   A5      |A5      |     |    
|5-----5-----|5----5-------|5-------|-----|----
|5-----5-----|5----5-------|5-------|-----|----
|2-----2-----|2----2-------|2-------|-----|----
|2-----2-----|2----2-------|2-------|-----|----
|0-----0-----|0----0-------|0-------|-----|----
|------------|-------------|--------|-----|----


=============
litgo@aol.com            www.thewho.net/whotabs                                 

================================================================================
CRD TRANSCRIPTION
Won't Get Fooled Again 
By The Who
>From Who's Next, 1971
Written by Pete Townshend (c)1971 Towser Tunes Inc./Fabulous Music Ltd.

Original crd transcription by: pjoe@charon.muc.de (Peter Eybert)
==============
transcribed by
litgo@aol.com
==============


A      x022xx
A5     x02255
(G)    3xxxxx
(C)    x3xxxx
G     (3)x0033
G/D    xx0433
D7     xx0535
E      022400
E7     020100
E6     042200
E7ii   050400
D*     acoustic only

|| A     |     |...

(G)| A   |    (G)|A    |     (G)|A   A   A |       |     |     D*

         A                     G* D* 
We'll be fighting in the streets
         A                     G* D*
With our children at our feet
        A                       D*   (G^)E         C  G G
And the morals that they worship will be gone
        A                    G* D* 
And the men who spurred us on 
       A                     G* D*
Sit in judgement of all wrong
       A                   D*    (G^) E      C G G
They decide and the shotgun sings the song

[chorus]
     D      A          D         A
I'll tip my hat to the new constitution
D      A           D       A
Take a bow for the new revolution
D         A           D          A
Smile and grin at the change all around
G                     E7   E6  E7
Pick up my guitar and play
G               E7   E6  E7
Just like yesterday
          G                   D     Dsus4 | D  (C^)| D 
Then I'll get on my knees and pray
                     A     | G D | A    | G  D |
We don't get fooled again

                               2
||: A A5 G A A5 G  | A5 G  D :||
||----5------5-----|-5--------||
||----5------5-----|-5---2-3--||
||----2-0----2-0---|-2-0-2-2--||
||--2---0--2---0-2-|---0---4--||
||--0------0-------|----------||
||-----------------|----------||

The change, it had to come
We knew it all along
We were liberated from the fold, that's all
And the world looks just the same
And history ain't changed
'Cause the banners, they all flown in the last war

[repeat chorus]
     D      A          D         A
I'll tip my hat to the new constitution
D      A           D       A
Take a bow for the new revolution
D         A           D          A
Smile and grin at the change all around
G                     E7   E6  E7
Pick up my guitar and play
G               E7   E6  E7
Just like yesterday
          G                   D     G/D | D  G/D | D7 
Then I'll get on my knees and pray
                     A     |   G D | A    | G  D |
We don't get fooled again  no,no

                             4
||: A A (G) A | A (G)  G D :||
||------------|--------3-2--||
||------------|--------3-3--||
||--2-2-----2-|-2------0-2--||
||--2-2-----2-|-2------0-0--||
||--0-0-----0-|-0-----------||
||-------3----|----3-0------||

                                     3
||: A A5 G A5 G A|    D....         :||
||----5----5-----|-------------------||
||----5----5-----|----3-3-3-3-3-3-3--||
||----2-0--2-0---|-2--2-2-2-2-2-2-2--||
||------0-2--0-2-|-2--4-4-4-4-4-4-4--||
||--0-----------0|-------------------||
||---------------|-------------------||


| A  A5 G A5 G A |  D     |

     B                  B                
I'll move myself and my family aside
E     E6           E7ii      E6
If we happen to be left half alive
     A
I'll get all my papers and smile at the sky
         B                        B7        B     
Though I know that the hypnotized never lie

      Do ya? (third time)
||: B B | A  E   :||

    Yeah! (third time)
||: A   | G D    :||

There's nothing in the street looks any different to me
And the slogans are replaced by-the-by
And the parting on the left is now parting on the right
And the beards have all grown longer overnight

[repeat chorus]
                  4
||: A     | D    :||

||: A A5 G A5 G A|    D....         :|| A....
||----5----5-----|-------------------||
||----5----5-----|----3-3-3-3-3-3-3--||
||----2-0--2-0---|-2--2-2-2-2-2-2-2--||
||------0-2--0-2-|-2--4-4-4-4-4-4-4--||
||--0-----------0|-------------------||
||---------------|-------------------||

[synth break]

A       | G   D   | A      | G   D |
Yeah!

A               | G   D  |
Meet the new boss
A                  | G   D  |
Same as the old boss

                         4
||: A   A5  | A5   G D  :||

                               2
||: A A5 G        |       D/A :||
||----5-----5-----|-5----------||
||----5-----5-----|-5-----3----||
||----2-0---2-0---|-2-0-2-2----||
||--2---0-2---0-2-|---0-2-4----||
||--0-----0-------|------------||
||----------------|------------||


| A5    A5  | A5   A5      | A      | A5
|-5---------|-5------------|--------|-5-
|-5---------|-5----2-------|--------|-5-
|-2-----2---|-2----2-------|-2------|-2-
|-2-----2---|-2----2---2/2/|-2------|-2-
|-0-----0---|-0----0---0/0/|-0------|-0-
|-----------|--------------|--------|---

=============
litgo@aol.com

#----------------------------------PLEASE NOTE---------------------------------#
#This file is the author's own work and represents their interpretation of the #
#song. You may only use this file for private study, scholarship, or research. #
#------------------------------------------------------------------------------#


Disclaimer

A note on the content here:

The files archived on this site are the respective transcriber’s own work and represent their interpretations of the songs. You may only use these files for private study, scholarship or research. more on use of files >>

Section navigation

Tablature Section

Site info Navigation

Whotabs is not affiliated with The Who, its record company or management.