Whotabs – The Definitive Online Tablature and Gear Resource for The Who since 1997

Return to Whotabs

Just Breath – guitar tab

Just Breath | guitar tab
By Rachel Fuller and Pete Townshend
>From Shine (EP), 2006
Written by Rachel Fuller and Pete Townshend (c)2006 Eel Pie Publishing ltd/Towser Tunes

#----------------------------------PLEASE NOTE---------------------------------#
#This file is the author's own work and represents their interpretation of the #
#song. You may only use this file for private study, scholarship, or research. #
#------------------------------------------------------------------------------#

==============                                                        
transcribed by         2007-05-01          Whotabs                    
litgo@aol.com                              www.thewho.net/whotabs     
==============                                                        

Tuning: DGDGBD
Fingerpick
Pedal eighth note bass note throughout

[intro]
|------------------------|------------------------|
|-3---3--0---3-3-3--0----|-3---3--0---3-3-3--0----|
|-0---0--0---0-0-0--0----|-0---0--0---0-0-0--0----|
|-4---4--4---4-4-4--4----|-4---4--4---4-4-4--4----|
|-0---0------0-0-0--0----|-0---0------0-0-0--0----|
|--------2T---------2T---|--------2T--------------|

 I hear you say...                      chase ...
|--------------------------------------------------------|
|-3-----3---0-----3--3-0-----3--3-0-----8---6---4---3----|
|-0-----0---0-----0--0-0-----0--0-0-----0---0---0---0----|
|-4-----4---4-----4--4-4-----4--4-4-----9---7---5---4----|
|-0-----0---0-----0--0-0-----0--0-0----------------------|
|---------------------------------------7T--5T--3T--2T---|

 Away                   It feels like a...
|---------------------------|
|-1--1-1---1-1---1-1----1-1-|
|-0--0-0---0-0---0-0----0-0-|
|-1--1-1---1-1---1-1----1-1-|
|-0--0-0---0-0---0-0----0-0-|
|---------------------------|


  Dream...
|-------------7--5------------------7--5---|
|-7-----7--5--7--5----7---0---7--5--7--5---|
|-7-----7--5--7--5----7---0---7--5--7--5---|
|-7-----7--5--0--0----7---7---7--5--0--0---|
|-0-----0--0----------0---0---0--0---------|
|------------------------------------------|

[chorus]
  Believe            that we should just breathe   just breathe  
|-9--------------------------7------5----9----------------------|
|-8------------------7----5--7------5----8--------------1---1-1-|
|-7------------------7----5--7------5----7--------------0---0-0-|
|--------------------7----5--0------0-------------------1---1-1-|
|-0--0--0-0-0--------0----0--------------0--0--0-0-0----0---0-0-|
|---------------------------------------------------------------|

just breathe and let your self feel
    |---------------------------|
    |-1--1-1---1-1---1-1----1-1-|
    |-0--0-0---0-0---0-0----0-0-|
    |-1--1-1---1-1---1-1----1-1-|
    |-0--0-0---0-0---0-0----0-0-|
    |---------------------------|


|-------------7--5------------------7--5---|
|-7-----7--5--7--5----7---0---7--5--7--5---|
|-7-----7--5--7--5----7---0---7--5--7--5---|
|-7-----7--5--0--0----7---7---7--5--0--0---|
|-0-----0--0----------0---0---0--0---------|
|------------------------------------------|

[repeat verse]

[bridge]
 And if it feels...                     There         
|1---------3--------------1--3--5-------1--3----------|
|1---------3------3---5---1--3--5-------1--3---3---5--|
|1---------3------3---5---1--3--5-------1--3---3---5--|
|0---------0------3---5---0--0--0-0-0-0-0--0---3---5--|
|-----------------0---0------------------------0---0--|
|-----------------------------------------------------|

  All                 breathe
|-1--3--5--8--10--10--12-------------|
|-1--3--5--8--10--10--12-------------|
|-1--3--5--8--10--10--12-------------|
|-0--0--0--0--0---0---0--0-0-0-0-0-0-|
|------------------------------------|
|------------------------------------|

[outro]
|------------------------|------------------------|----
|-3---3--0---3-3-3--0----|-3---3--0---3-3-3--0----|3---
|-0---0--0---0-0-0--0----|-0---0--0---0-0-0--0----|0---
|-4---4--4---4-4-4--4----|-4---4--4---4-4-4--4----|4---
|-0---0------0-0-0-------|-0---0------0-0-0-------|0---
|--------2T---------2T---|--------2T---------2T---|----



=============
litgo@aol.com

#----------------------------------PLEASE NOTE---------------------------------#
#This file is the author's own work and represents their interpretation of the #
#song. You may only use this file for private study, scholarship, or research. #
#------------------------------------------------------------------------------#

Disclaimer

A note on the content here:

The files archived on this site are the respective transcriber’s own work and represent their interpretations of the songs. You may only use these files for private study, scholarship or research. more on use of files >>

Section navigation

Tablature Section

Site info Navigation

Whotabs is not affiliated with The Who, its record company or management.