Whotabs – The Definitive Online Tablature and Gear Resource for The Who since 1997

Return to Whotabs

Mirror Door – bass tab

Mirror Door | bass tab
By The Who, 2006
>From Endless Wire, 2006
Written By Pete Townshend, (c)2006 Eel Pie Publishing

#----------------------------------PLEASE NOTE---------------------------------#
#This file is the author's own work and represents their interpretation of the #
#song. You may only use this file for private study, scholarship, or research. #
#------------------------------------------------------------------------------#



Main Riff (Intro/Chorus)
|-------------------------------|-------------|------|
|-------------------------------|-------------|------|
|-7--7-7----------5--5-5--------|----5--7-----|-/7p5-|
|---------7--7-7----------5--5--|-7--------7--|------|

Verse (If you...) (Just 'cause...)
|-----------------|------------------------------|
|-----------------|------------------------------|
|-------5--5------|---5h7p5----7h9~~~~--/9-9-9-9-|
|7--7-7------5--5-|-5--------5-------------------|

Verse Fill 1 (If you're...) Fill 2 (Bobby Darren...)
|----------------------|    |------------------|
|-------------7--------|    |------------------|
|-------7-8-9---5------|    |-------3h4h5------|
|7--7-7-----------5--5-|    |7--7-7-------5--5-|

Pre Chorus     (You will find...) 
|--------------|-------------------------|
|--5h7p5-------|-------------------------|
|--------5-5-5-|-7----7----7----5h7p5h7--|
|-5------------|-------------------------|

Special Verse
|-----------------------------------------------------------------
|-------------------------------------------------12/16h19~~~~~\--
|-----------17--17-------------------17--17-----------------------
|-19--19-19--------17--17--19--19-19--------17--17----------------

--------------------------------------------------------|
------------------------------------------15h17p15---15-|
-----------17--17-------------------17-17----------17---|
-19--19-19--------17--17---17-17-17---------------------|

Outro (3:18)
|----------------------------------|
|-------9/12~~~\---------10~~~~h12-|
|---7h9-------------6/10-----------|
|-9--------------10----------------|

|----------------------------------------------------------------
|*----------------------------------------------------19---------
|*----17h19p17----19p17-----17-17-19-----17-----17h19--------17--
|--19----------17--------19----------17------19----------17------

---------------|
--------------*|
---17/19------*|
-19------17----| Note: The end of the outro is just a bunch of
                 variations of this.

/ - Slide Up
\ - Slide Down
~ - Hold Note

#----------------------------------PLEASE NOTE---------------------------------#
#This file is the author's own work and represents their interpretation of the #
#song. You may only use this file for private study, scholarship, or research. #
#------------------------------------------------------------------------------#

Disclaimer

A note on the content here:

The files archived on this site are the respective transcriber’s own work and represent their interpretations of the songs. You may only use these files for private study, scholarship or research. more on use of files >>

Section navigation

Tablature Section

Site info Navigation

Whotabs is not affiliated with The Who, its record company or management.